0
SECTION
2
HEADER
9
$INSUNITS
70
4
9
$ACADVER
1
AC1014
9
$HANDSEED
5
FFFF
0
ENDSEC
0
SECTION
2
TABLES
0
TABLE
2
VPORT
5
8
100
AcDbSymbolTable
0
ENDTAB
0
TABLE
2
LTYPE
5
5
100
AcDbSymbolTable
0
LTYPE
5
14
100
AcDbSymbolTableRecord
100
AcDbLinetypeTableRecord
2
BYBLOCK
70
0
0
LTYPE
5
15
100
AcDbSymbolTableRecord
100
AcDbLinetypeTableRecord
2
BYLAYER
70
0
0
ENDTAB
0
TABLE
2
LAYER
5
2
100
AcDbSymbolTable
70
2
0
LAYER
5
50
100
AcDbSymbolTableRecord
100
AcDbLayerTableRecord
2
0
70
0
6
CONTINUOUS
0
ENDTAB
0
TABLE
2
STYLE
5
3
100
AcDbSymbolTable
70
1
0
STYLE
5
11
100
AcDbSymbolTableRecord
100
AcDbTextStyleTableRecord
2
STANDARD
70
0
0
ENDTAB
0
TABLE
2
VIEW
5
6
100
AcDbSymbolTable
70
0
0
ENDTAB
0
TABLE
2
UCS
5
7
100
AcDbSymbolTable
70
0
0
ENDTAB
0
TABLE
2
APPID
5
9
100
AcDbSymbolTable
70
2
0
APPID
5
12
100
AcDbSymbolTableRecord
100
AcDbRegAppTableRecord
2
ACAD
70
0
0
ENDTAB
0
TABLE
2
DIMSTYLE
5
A
100
AcDbSymbolTable
70
1
0
ENDTAB
0
TABLE
2
BLOCK_RECORD
5
1
100
AcDbSymbolTable
70
1
0
BLOCK_RECORD
5
1F
100
AcDbSymbolTableRecord
100
AcDbBlockTableRecord
2
*MODEL_SPACE
0
BLOCK_RECORD
5
1B
100
AcDbSymbolTableRecord
100
AcDbBlockTableRecord
2
*PAPER_SPACE
0
ENDTAB
0
ENDSEC
0
SECTION
2
BLOCKS
0
BLOCK
5
20
100
AcDbEntity
100
AcDbBlockBegin
2
*MODEL_SPACE
0
ENDBLK
5
21
100
AcDbEntity
100
AcDbBlockEnd
0
BLOCK
5
1C
100
AcDbEntity
100
AcDbBlockBegin
2
*PAPER_SPACE
0
ENDBLK
5
1D
100
AcDbEntity
100
AcDbBlockEnd
0
ENDSEC
0
SECTION
2
ENTITIES
0
LINE
5
100
100
AcDbEntity
8
OUTER_PROFILES
100
AcDbLine
10
27.320352851220726
20
0.72000000000000508
30
0
11
47.019294682930507
21
5.4477460396103545
31
0
0
ARC
5
101
100
AcDbEntity
8
OUTER_PROFILES
100
AcDbCircle
10
51.686753732436998
20
-13.999999999999996
30
0
40
20.000000000000004
210
0
220
-0
230
1
100
AcDbArc
50
90
51
103.49573328079583
0
LINE
5
102
100
AcDbEntity
8
OUTER_PROFILES
100
AcDbLine
10
51.686753732436998
20
6.0000000000000071
30
0
11
71.941471050228373
21
6.0000000000000053
31
0
0
ARC
5
103
100
AcDbEntity
8
OUTER_PROFILES
100
AcDbCircle
10
-71.941471050228373
20
9.0000000000000036
30
0
40
3.0000000000000004
210
0
220
-0
230
-1
100
AcDbArc
50
250.10472763324651
51
270
0
LINE
5
104
100
AcDbEntity
8
OUTER_PROFILES
100
AcDbLine
10
72.96237694006912
20
6.1790513715970574
30
0
11
81.541258741061455
21
9.2837626274837248
31
0
0
ARC
5
105
100
AcDbEntity
8
OUTER_PROFILES
100
AcDbCircle
10
-80.520352851220721
20
12.104711255886675
30
0
40
3.0000000000000071
210
0
220
-0
230
-1
100
AcDbArc
50
180
51
250.10472763324674
0
LINE
5
106
100
AcDbEntity
8
OUTER_PROFILES
100
AcDbLine
10
83.520352851220721
20
12.104711255886663
30
0
11
83.520352851220736
21
17.55735931288071
31
0
0
ARC
5
107
100
AcDbEntity
8
OUTER_PROFILES
100
AcDbCircle
10
-80.520352851220736
20
17.55735931288072
30
0
40
3.0000000000000004
210
0
220
0
230
-1
100
AcDbArc
50
134.9999999999998
51
180
0
LINE
5
108
100
AcDbEntity
8
OUTER_PROFILES
100
AcDbLine
10
82.641673194780367
20
19.678679656440366
30
0
11
75.813246070034182
21
26.50710678118655
31
0
0
ARC
5
109
100
AcDbEntity
8
OUTER_PROFILES
100
AcDbCircle
10
-75.106139288847643
20
25.800000000000001
30
0
40
1.0000000000000009
210
0
220
0
230
-1
100
AcDbArc
50
90
51
134.9999999999996
0
LINE
5
110
100
AcDbEntity
8
OUTER_PROFILES
100
AcDbLine
10
75.106139288847643
20
26.800000000000001
30
0
11
64.520352851220721
21
26.800000000000001
31
0
0
ARC
5
111
100
AcDbEntity
8
OUTER_PROFILES
100
AcDbCircle
10
-64.520352851220721
20
25.800000000000011
30
0
40
0.99999999999999645
210
0
220
0
230
-1
100
AcDbArc
50
0
51
90
0
LINE
5
112
100
AcDbEntity
8
OUTER_PROFILES
100
AcDbLine
10
63.520352851220721
20
25.800000000000011
30
0
11
63.520352851220721
21
18.955617112013158
31
0
0
ARC
5
113
100
AcDbEntity
8
OUTER_PROFILES
100
AcDbCircle
10
61.520352851220721
20
18.955617112013165
30
0
40
2.0000000000000013
210
0
220
0
230
1
100
AcDbArc
50
265.71084667118078
51
360
0
LINE
5
114
100
AcDbEntity
8
OUTER_PROFILES
100
AcDbLine
10
61.370772954737447
20
16.961218492236249
30
0
11
56.772500947971324
21
17.306088892743713
31
0
0
ARC
5
115
100
AcDbEntity
8
OUTER_PROFILES
100
AcDbCircle
10
59.016199395220347
20
47.222068189397405
30
0
40
30.000000000000004
210
0
220
0
230
1
100
AcDbArc
50
231.34019174590992
51
265.71084667118095
0
LINE
5
116
100
AcDbEntity
8
OUTER_PROFILES
100
AcDbLine
10
40.27534796858761
20
23.796003906106492
30
0
11
27.520352851220721
21
34
31
0
0
LINE
5
117
100
AcDbEntity
8
OUTER_PROFILES
100
AcDbLine
10
27.520352851220721
20
34
30
0
11
0
21
34
31
0
0
ARC
5
118
100
AcDbEntity
8
OUTER_PROFILES
100
AcDbCircle
10
1.7763568394002505e-14
20
31.000000000000007
30
0
40
3.0000000000000022
210
0
220
0
230
-1
100
AcDbArc
50
0
51
90.000000000000341
0
LINE
5
119
100
AcDbEntity
8
OUTER_PROFILES
100
AcDbLine
10
-3.00000000000002
20
31.000000000000011
30
0
11
-3.0000000000000249
21
2.9999999999999982
31
0
0
ARC
5
120
100
AcDbEntity
8
OUTER_PROFILES
100
AcDbCircle
10
1.7763568394002505e-14
20
3.0000000000000004
30
0
40
3.0000000000000018
210
-0
220
0
230
-1
100
AcDbArc
50
270
51
360
0
LINE
5
121
100
AcDbEntity
8
OUTER_PROFILES
100
AcDbLine
10
-1.9428902930940239e-14
20
-1.1102230246251565e-15
30
0
11
19.084025974060602
21
4.4408920985006262e-15
31
0
0
LINE
5
122
100
AcDbEntity
8
OUTER_PROFILES
100
AcDbLine
10
19.084025974060602
20
4.4408920985006262e-15
30
0
11
22.998687269165792
21
6.6613381477509392e-15
31
0
0
SPLINE
5
123
100
AcDbEntity
8
OUTER_PROFILES
100
AcDbSpline
70
0
71
3
72
8
73
4
74
0
42
0.000000001
43
0.0000000001
44
0.0000000001
40
4.6471954930971702
40
4.6471954930971702
40
4.6471954930971702
40
4.6471954930971702
40
5.1201600526066464
40
5.1201600526066464
40
5.1201600526066464
40
5.1201600526066464
10
22.998687269165792
20
6.6613381477509392e-15
30
0
10
24.277593613636359
20
4.4408920985006262e-15
30
0
10
25.576924022146734
20
0.17810508193431884
30
0
10
26.781169010686963
20
0.55225396038965591
30
0
0
SPLINE
5
124
100
AcDbEntity
8
OUTER_PROFILES
100
AcDbSpline
70
0
71
3
72
8
73
4
74
0
42
0.000000001
43
0.0000000001
44
0.0000000001
40
4.7123889803846897
40
4.7123889803846897
40
4.7123889803846897
40
4.7123889803846897
40
4.7759719804476326
40
4.7759719804476326
40
4.7759719804476326
40
4.7759719804476326
10
27.320352851220715
20
0.71999999999999842
30
0
10
27.140624904376125
20
0.66404695994460861
30
0
10
26.960896957531553
20
0.60809393512809673
30
0
10
26.781169010686973
20
0.55225396038965369
30
0
0
CIRCLE
5
125
100
AcDbEntity
8
INTERIOR_PROFILES
100
AcDbCircle
10
-4.9999999999999911
20
26.000000000000007
30
0
40
3.5000000000000009
210
0
220
0
230
-1
0
CIRCLE
5
126
100
AcDbEntity
8
INTERIOR_PROFILES
100
AcDbCircle
10
-4.9999999999999911
20
8.0000000000000089
30
0
40
3.5000000000000009
210
0
220
0
230
-1
0
LINE
5
127
100
AcDbEntity
8
BEND
100
AcDbLine
10
20.660176425610342
20
34.000000000000014
30
2.2204460492503131e-15
11
20.660176425610324
21
0.014835965651012195
31
-1.6653345369377348e-15
0
LINE
5
128
100
AcDbEntity
8
BEND_EXTENT
100
AcDbLine
10
27.320352851220726
20
0.72000000000000508
30
-5.5511151231257827e-15
11
27.320352851220726
21
34
31
-5.5511151231257827e-15
0
LINE
5
129
100
AcDbEntity
8
BEND_EXTENT
100
AcDbLine
10
13.999999999999995
20
33.999999999999993
30
6.6613381477509392e-15
11
13.999999999999986
21
0
31
6.6613381477509392e-15
0
ENDSEC
0
SECTION
2
OBJECTS
0
DICTIONARY
5
C
100
AcDbDictionary
3
ACAD_GROUP
350
D
3
ACAD_MLINESTYLE
350
17
0
DICTIONARY
5
D
100
AcDbDictionary
0
DICTIONARY
5
1A
330
C
100
AcDbDictionary
0
DICTIONARY
5
17
100
AcDbDictionary
0
ENDSEC
0
EOF
